Password:
Login:
enter Registration      
HOME FORUM DVA DONATE
каталог христианских песен
SvenskaLatviskiБългарскиРусскийБеларуская
English
Українська

Partners of site




Guitar tuner / Тюнер для гитары

Забыли тюнер или думаете - а не купить ли...

Хороший (и бесплатный) тюнер для андроида -
Tuner - gStrings Free
(play.google.com/store/apps/details?id=org.cohortor.gstrings&hl=en)
(опробован!!!)

Неплохой тюнер для РС - хотя сторонние шумы иногда мешают + нужен нормальный ...
[2015-12-25 05:53:24]

полная версия новости >>

Alphabetical pointer of songs

# - все песни : A : B : C : D : E : F : G : H : I : J : K : L : M : N : O : P : Q : R : S : T : U : V : W : Y : Z : X :
А : Б : В : Г : Д : Е : Ж : З : И : І : Й : К : Л : М : Н : О : П : Р : С : Т : У : Ф : Х : Ц : Ч : Ш : Щ : Э : Є : Я : Ї : Ю :

Users on-line

Никого нет, а кто же тогда ты)

Statistics of site

# In all the songs in a catalogue 9735
# In all with chords 6686
# In all with comments 3782
# In all the users 8415

Es Tiempo /BAS/ (Espanol)

To pass to the list of songs which names begin on the letter E
  • Artist: Hillsong Español
  • Album: Unidos Permanecemos
  • Language: English
  • Track Number: 2
  • Selected by: Eugene Seredyuk
  • Other name: The Time Has Come
  • Тематика: Поклонение  Прославление  
  • Songs of the album:
     

159+1     


<< - Показать версию без аккордов - >>

Es Tiempo /BAS/


Intro: Primero la guitarra y luego entra el bajo asi.
G|-------------------------------------|
D|-------------------------------------|
A|---7/9(x16)--7(x16)--5(x16)--7(x16)--| x2
E|-------------------------------------|

G|-------------------------------------|
D|-------------------------------------|
A|---2(x16)--9(x16)--5(x16)--7(x16)----| x2
E|-------------------------------------|

G|-------------------------------------|
D|-------------------------------------|
A|-----------------5(x16)--------------|
E|-2(x16)--5(x16)----------5(x16)------|

G|------------------------------------------------|
D|------------------------------------------------|
A|---2(x16)--9(x16)--5(x16)--7(x16)--5--5/12(x32)-|
E|------------------------------------------------|



Verso (Amor inexplicable.....)   (es 12 y no 1 2)
G|---------------------------------------------------|
D|---------------------------------------------------|
A|---99999999--55555555--00000000--/1212121212121212-|
E|---------------------------------------------------|

(En tu misericordia.....)
G|------------------------------------------------------------|
D|------------------------------------------------------------|
A|--12-14-12--99999999--55555555--00000000--/1212121212121212-|
E|------------------------------------------------------------|

Pre Coro (Es tiempo de.....)
G|------------------------------------------------|
D|------------------------------------------------|
A|--7--9--5--5-7-5--7--9--5555555555555555--------|
E|------------------------------------------------|

Coro(Por ti por ti......) x2
G|------------------------------------------------|
D|------------------------------------------------|
A|--00000000--/121212121212------9999999999999999-|
E|-------------------------1212-------------------|


G|-----------------------------------------------|
D|-----------------------------------------------|
A|-5555555555555555--00000000--/1212121212121212-|
E|-----------------------------------------------|



Verso
Pre coro
Coro x2

Instrumental x2
G|---------------------------------------------------|
D|---------------------------------------------------|
A|--9979-999--5555-555--00000000--/1212121212121212--|
E|---------------------------------------------------|

Pre Puente x2
G|------------------------------------------------------------------|
D|------7-9-----7-9-----7-9-----7-9-----7-9-------------7-9---------|
A|--9-9-----9-9-----9-9-----9-9-----------------7-9-----------7-7---|
E|----------------------------------7-7-----7-7-----7-7-----7-----7-|

Puente (Tuyo soy Señor.......)x3
G|-------------------------------------------------------------------|
D|------7-9-----7-9-----7-9-----7-9-----7-9-------------7-9----------|
A|--9-9-----9-9-----9-9-----9-9-----------------7-9-------------7----|
E|----------------------------------7-7-----7-7-----7-7-----7-7----7-|

G|------------------------------------------------------------------|
D|------7-9-------------7-9-----------------------7-9---------------|
A|--5-5-----5-5-7---5-5-----5-5-7---55555555--7777-7-7--------------|
E|----------------5---------------5---------------------------------|

(Es tiempo de.....)
G|-----------|
D|-----------|
A|--7--9--5--| x2
E|-----------|

G|------------------------------------------------|
D|------------------------------------------------|
A|--7--9--5--5-7-5--7--9--5555555555555555--------|
E|------------------------------------------------|

Coro x2

End
G|--------------------------------------------------|
D|--------------------------------------------------|
A|--9979-999--5555-555--00000000--/1212121212121212-|
E|--------------------------------------------------|

G|----------------------------|
D|----------------------------|
A|--9979-999--5-5-5-5---------|
E|---------------------5------|

 

Added: 26 сен 2012 | Eugene